  0
SECTION
  2
HEADER
  9
$ACADVER
  1
AC1015
  9
$ACADMAINTVER
  70
     0
  9
$DWGCODEPAGE
  3
ANSI_1251
  9
$INSBASE
  10
0.0000000000
  20
0.0000000000
  30
0.0000000000
  9
$EXTMIN
  10
0.0000000000
  20
0.0000000000
  30
0.0000000000
  9
$EXTMAX
  10
210.0000000000
  20
297.0000000000
  30
0.0000000000
  9
$LIMMIN
  10
0.0000000000
  20
0.0000000000
  9
$LIMMAX
  10
210.0000000000
  20
297.0000000000
  9
$ORTHOMODE
  70
     0
  9
$REGENMODE
  70
     1
  9
$FILLMODE
  70
     1
  9
$QTEXTMODE
  70
     0
  9
$MIRRTEXT
  70
     1
  9
$DRAGMODE
  70
     2
  9
$LTSCALE
  40
1.0000000000
  9
$OSMODE
  70
     0
  9
$ATTMODE
  70
     1
  9
$TEXTSIZE
  40
5.0000000000
  9
$TRACEWID
  40
5.0000000000
  9
$TEXTSTYLE
  7
K5_TEXTSTYLE
  9
$CLAYER
  8
0
  9
$CELTYPE
  6
BYLAYER
  9
$CECOLOR
  62
     256
  9
$CELTSCALE
  40
1.0000000000
  9
$DELOBJ
  70
     1
  9
$DISPSILH
  70
     0
  9
$DIMSCALE
  40
1.0000000000
  9
$DIMASZ
  40
5.0000000000
  9
$DIMEXO
  40
2.0000000000
  9
$DIMDLI
  40
10.0000000000
  9
$DIMRND
  40
0.0000000000
  9
$DIMDLE
  40
0.0000000000
  9
$DIMEXE
  40
5.0000000000
  9
$DIMTP
  40
0.0000000000
  9
$DIMTM
  40
0.0000000000
  9
$DIMTXT
  40
5.0000000000
  9
$DIMCEN
  40
2.0000000000
  9
$DIMTSZ
  40
0.0000000000
  9
$DIMTOL
  70
     0
  9
$DIMLIM
  70
     0
  9
$DIMTIH
  70
     1
  9
$DIMTOH
  70
     1
  9
$DIMSE1
  70
     0
  9
$DIMSE2
  70
     0
  9
$DIMTAD
  70
     0
  9
$DIMZIN
  70
     0
  9
$DIMBLK
  1

  9
$DIMASO
  70
     1
  9
$DIMSHO
  70
     0
  9
$DIMPOST
  1

  9
$DIMAPOST
  1

  9
$DIMALT
  70
     0
  9
$DIMALTD
  70
     2
  9
$DIMALTF
  40
25.4000000000
  9
$DIMLFAC
  40
1.0000000000
  9
$DIMTOFL
  70
     0
  9
$DIMTVP
  40
0.0000000000
  9
$DIMTIX
  70
     0
  9
$DIMSOXD
  70
     0
  9
$DIMSAH
  70
     0
  9
$DIMBLK1
  1

  9
$DIMBLK2
  1

  9
$DIMSTYLE
  2
K5_DIMSTYLE
  9
$DIMCLRD
  70
     0
  9
$DIMCLRE
  70
     0
  9
$DIMCLRT
  70
     0
  9
$DIMTFAC
  40
0.6660000000
  9
$DIMGAP
  40
0.6250000000
  9
$DIMJUST
  70
     0
  9
$DIMSD1
  70
     0
  9
$DIMSD2
  70
     0
  9
$DIMTOLJ
  70
     1
  9
$DIMTZIN
  70
     0
  9
$DIMALTZ
  70
     0
  9
$DIMALTTZ
  70
     0
  9
$DIMFIT
  70
     3
  9
$DIMUPT
  70
     0
  9
$DIMUNIT
  70
     8
  9
$DIMDEC
  70
     4
  9
$DIMTDEC
  70
     4
  9
$DIMALTU
  70
     8
  9
$DIMALTTD
  70
     4
  9
$DIMTXSTY
  7
K5_DIMSTYLE
  9
$DIMAUNIT
  70
     0
  9
$LUNITS
  70
     2
  9
$LUPREC
  70
     4
  9
$SKETCHINC
  40
2.5000000000
  9
$FILLETRAD
  40
0.0000000000
  9
$AUNITS
  70
     0
  9
$AUPREC
  70
     4
  9
$MENU
  1
acad
  9
$ELEVATION
  40
0.0000000000
  9
$PELEVATION
  40
0.0000000000
  9
$THICKNESS
  40
0.0000000000
  9
$LIMCHECK
  70
     0
  9
$BLIPMODE
  70
     1
  9
$CHAMFERA
  40
10.0000000000
  9
$CHAMFERB
  40
10.0000000000
  9
$CHAMFERC
  40
20.0000000000
  9
$CHAMFERD
  40
0.0000000000
  9
$SKPOLY
  70
     0
  9
$TDCREATE
  40
2446473.5191170140
  9
$TDUPDATE
  40
2447857.1770920139
  9
$TDINDWG
  40
0.0047545139
  9
$TDUSRTIMER
  40
0.0047545139
  9
$USRTIMER
  70
     1
  9
$ANGBASE
  50
0.0000000000
  9
$ANGDIR
  70
     0
  9
$PDMODE
  70
     0
  9
$PDSIZE
  40
0.0000000000
  9
$PLINEWID
  40
0.0000000000
  9
$COORDS
  70
     0
  9
$SPLFRAME
  70
     0
  9
$SPLINETYPE
  70
     6
  9
$SPLINESEGS
  70
     8
  9
$ATTDIA
  70
     0
  9
$ATTREQ
  70
     1
  9
$HANDLING
  70
     1
  9
$HANDSEED
  5
b0
  9
$SURFTAB1
  70
     6
  9
$SURFTAB2
  70
     6
  9
$SURFTYPE
  70
     6
  9
$SURFU
  70
     6
  9
$SURFV
  70
     6
  9
$UCSNAME
  2

  9
$UCSORG
  10
0.0000000000
  20
0.0000000000
  30
0.0000000000
  9
$UCSXDIR
  10
1.0000000000
  20
0.0000000000
  30
0.0000000000
  9
$UCSYDIR
  10
0.0000000000
  20
1.0000000000
  30
0.0000000000
  9
$PUCSNAME
  2

  9
$PUCSORG
  10
0.0000000000
  20
0.0000000000
  30
0.0000000000
  9
$PUCSXDIR
  10
1.0000000000
  20
0.0000000000
  30
0.0000000000
  9
$PUCSYDIR
  10
0.0000000000
  20
1.0000000000
  30
0.0000000000
  9
$USERI1
  70
     0
  9
$USERI2
  70
     0
  9
$USERI3
  70
     0
  9
$USERI4
  70
     0
  9
$USERI5
  70
     0
  9
$USERR1
  40
0.0000000000
  9
$USERR2
  40
0.0000000000
  9
$USERR3
  40
0.0000000000
  9
$USERR4
  40
0.0000000000
  9
$USERR5
  40
0.0000000000
  9
$WORLDVIEW
  70
     1
  9
$SHADEDGE
  70
     3
  9
$SHADEDIF
  70
     70
  9
$TILEMODE
  70
     1
  9
$MAXACTVP
  70
     48
  9
$PINSBASE
  10
0.0000000000
  20
0.0000000000
  30
0.0000000000
  9
$PLIMCHECK
  70
     0
  9
$PEXTMIN
  10
100000000000000000000.000000
  20
100000000000000000000.000000
  30
100000000000000000000.000000
  9
$PEXTMAX
  10
-100000000000000000000.000000
  20
-100000000000000000000.000000
  30
-100000000000000000000.000000
  9
$PLIMMIN
  10
0.0000000000
  20
0.0000000000
  9
$PLIMMAX
  10
210.0000000000
  20
297.0000000000
  9
$UNITMODE
  70
     0
  9
$VISRETAIN
  70
     1
  9
$PLINEGEN
  70
     0
  9
$PSLTSCALE
  70
     1
  9
$TREEDEPTH
  70
     3020
  9
$PICKSTYLE
  70
     1
  9
$CMLSTYLE
  2
STANDARD
  9
$CMLJUST
  70
     0
  9
$CMLSCALE
  40
20.0000000000
  9
$PROXYGRAPHICS
  70
     1
  9
$MEASUREMENT
  70
     1
  0
ENDSEC
  0
SECTION
  2
CLASSES
  0
CLASS
  1
IMAGE
  2
AcDbRasterImage
  3
ISM
  90
     127
  280
     0
  281
     1
  0
CLASS
  1
IMAGEDEF
  2
AcDbRasterImageDef
  3
ISM
  90
     0
  280
     0
  281
     0
  0
CLASS
  1
RASTERVARIABLES
  2
AcDbRasterVariables
  3
ISM
  90
     0
  280
     0
  281
     0
  0
ENDSEC
  0
SECTION
  2
TABLES
  0
TABLE
  2
VPORT
  5
8
100
AcDbSymbolTable
  70
     2
  0
VPORT
  5
af
100
AcDbSymbolTableRecord
100
AcDbViewportTableRecord
  2
*ACTIVE
  70
     0
  10
0.0000000000
  20
0.0000000000
  11
1.0000000000
  21
1.0000000000
  12
223.7556630000
  22
574.2795120000
  13
0.0000000000
  23
0.0000000000
  14
10.0000000000
  24
10.0000000000
  15
10.0000000000
  25
10.0000000000
  16
0.0000000000
  26
0.0000000000
  36
1.0000000000
  17
0.0000000000
  27
0.0000000000
  37
0.0000000000
  40
1168.3044060000
  41
1.6961330000
  42
50.0000000000
  43
0.0000000000
  44
0.0000000000
  50
0.0000000000
  51
0.0000000000
  71
     0
  72
     100
  73
     1
  74
     1
  75
     0
  76
     0
  77
     0
  78
     0
  0
ENDTAB
  0
TABLE
  2
LTYPE
  5
5
100
AcDbSymbolTable
  70
     5
  0
LTYPE
  5
16
100
AcDbSymbolTableRecord
100
AcDbLinetypeTableRecord
  2
BYBLOCK
  70
     0
  3
 
  72
     65
  73
     0
  40
0.0000000000
  0
LTYPE
  5
17
100
AcDbSymbolTableRecord
100
AcDbLinetypeTableRecord
  2
BYLAYER
  70
     0
  3
 
  72
     65
  73
     0
  40
0.0000000000
  0
LTYPE
  5
18
100
AcDbSymbolTableRecord
100
AcDbLinetypeTableRecord
  2
CONTINUOUS
  70
     0
  3
 
  72
     65
  73
     0
  40
0.0000000000
  0
LTYPE
  5
25
100
AcDbSymbolTableRecord
100
AcDbLinetypeTableRecord
  2
K5LT_THIN
  70
     64
  3
 
  72
     65
  73
     0
  40
0.0000000000
  0
LTYPE
  5
6d
100
AcDbSymbolTableRecord
100
AcDbLinetypeTableRecord
  2
K5LT_BASIC
  70
     64
  3
 
  72
     65
  73
     0
  40
0.0000000000
  0
ENDTAB
  0
TABLE
  2
LAYER
  5
2
100
AcDbSymbolTable
  70
     2
  0
LAYER
  5
10
100
AcDbSymbolTableRecord
100
AcDbLayerTableRecord
  2
0
  70
     0
  62
     7
  6
CONTINUOUS
  390
11
  0
LAYER
  5
9e
100
AcDbSymbolTableRecord
100
AcDbLayerTableRecord
  2
0_VIEW0
  70
     0
  62
     7
  6
CONTINUOUS
  390
9f
  0
ENDTAB
  0
TABLE
  2
STYLE
  5
3
100
AcDbSymbolTable
  70
     3
  0
STYLE
  5
12
100
AcDbSymbolTableRecord
100
AcDbTextStyleTableRecord
  2
K5_TEXTSTYLE
  70
     0
  40
0.0000000000
  41
0.7000000000
  50
15.0000000000
  71
     0
  42
5.0000000000
  3
win_eskd.shx
  4
b_eskd.shx
  0
STYLE
  5
13
100
AcDbSymbolTableRecord
100
AcDbTextStyleTableRecord
  2
K5_SYMBOLTEXTSTYLE
  70
     0
  40
0.0000000000
  41
0.7000000000
  50
0.0000000000
  71
     0
  42
5.0000000000
  3
win_eskd.shx
  4
b_eskd.shx
  0
STYLE
  5
14
100
AcDbSymbolTableRecord
100
AcDbTextStyleTableRecord
  2
K5_DIMSTYLE
  70
     0
  40
0.0000000000
  41
0.7000000000
  50
15.0000000000
  71
     0
  42
5.0000000000
  3
win_eskd.shx
  4
b_eskd.shx
  0
ENDTAB
  0
TABLE
  2
VIEW
  5
6
100
AcDbSymbolTable
  70
     0
  0
ENDTAB
  0
TABLE
  2
UCS
  5
7
100
AcDbSymbolTable
  70
     0
  0
ENDTAB
  0
TABLE
  2
APPID
  5
9
100
AcDbSymbolTable
  70
     1
  0
APPID
  5
15
100
AcDbSymbolTableRecord
100
AcDbRegAppTableRecord
  2
ACAD
  70
     0
  0
ENDTAB
  0
TABLE
  2
DIMSTYLE
  5
a
100
AcDbSymbolTable
  100
AcDbDimStyleTable
  70
     1
  0
DIMSTYLE
  105
21
102
{ACAD_REACTORS
102
}
100
AcDbSymbolTableRecord
100
AcDbDimStyleTableRecord
  2
K5_DIMSTYLE
  70
     0
  3
 
  4
 
  5

  6

  7

  40
1.0000000000
  41
1.0000000000
  42
0.0000000000
  43
2.0000000000
  44
2.0000000000
  45
0.0000000000
  46
5.0000000000
  47
0.0000000000
  48
0.0000000000
  140
5.0000000000
  141
5.0000000000
  142
0.0000000000
  143
0.0394000000
  144
1.0000000000
  145
1.0000000000
  146
0.6660000000
  147
1.0000000000
  71
     0
  72
     0
  73
     0
  74
     0
  75
     0
  76
     0
  77
     1
  78
     8
  170
     0
  171
     2
  172
     1
  173
     0
  174
     0
  175
     0
  176
     7
  177
     7
  178
     7
  270
     8
  271
     2
  272
     4
  273
     8
  274
     4
  278
     44
  279
     0
  340
14
  275
     0
  280
     0
  281
     0
  282
     0
  283
     1
  284
     0
  285
     0
  286
     0
  287
     3
  288
     0
  0
ENDTAB
  0
TABLE
  2
BLOCK_RECORD
  5
1
100
AcDbSymbolTable
  70
     14
  0
BLOCK_RECORD
  5
1b
100
AcDbSymbolTableRecord
100
AcDbBlockTableRecord
  2
*PAPER_SPACE
  0
BLOCK_RECORD
  5
1e
100
AcDbSymbolTableRecord
100
AcDbBlockTableRecord
  2
*MODEL_SPACE
  0
BLOCK_RECORD
  5
23
100
AcDbSymbolTableRecord
100
AcDbBlockTableRecord
  2
K5_INSIDE
  0
BLOCK_RECORD
  5
2c
100
AcDbSymbolTableRecord
100
AcDbBlockTableRecord
  2
K5_OUTSIDE
  0
BLOCK_RECORD
  5
35
100
AcDbSymbolTableRecord
100
AcDbBlockTableRecord
  2
K5_OBLIQUE
  0
BLOCK_RECORD
  5
3a
100
AcDbSymbolTableRecord
100
AcDbBlockTableRecord
  2
K5_ARROW_CLOSED_INSIDE
  0
BLOCK_RECORD
  5
42
100
AcDbSymbolTableRecord
100
AcDbBlockTableRecord
  2
K5_ARROW_CLOSED_OUTSIDE
  0
BLOCK_RECORD
  5
4b
100
AcDbSymbolTableRecord
100
AcDbBlockTableRecord
  2
K5_ARROW_OPEN_INSIDE
  0
BLOCK_RECORD
  5
50
100
AcDbSymbolTableRecord
100
AcDbBlockTableRecord
  2
K5_ARROW_OPEN_OUTSIDE
  0
BLOCK_RECORD
  5
56
100
AcDbSymbolTableRecord
100
AcDbBlockTableRecord
  2
K5_ARROW_RIGHTANGLE_INSIDE
  0
BLOCK_RECORD
  5
5b
100
AcDbSymbolTableRecord
100
AcDbBlockTableRecord
  2
K5_ARROW_RIGHTANGLE_OUTSIDE
  0
BLOCK_RECORD
  5
61
100
AcDbSymbolTableRecord
100
AcDbBlockTableRecord
  2
K5_DOT
  0
BLOCK_RECORD
  5
66
100
AcDbSymbolTableRecord
100
AcDbBlockTableRecord
  2
K5_SMALLDOT
  0
BLOCK_RECORD
  5
6b
100
AcDbSymbolTableRecord
100
AcDbBlockTableRecord
  2
*STAMP0
  0
ENDTAB
  0
ENDSEC
  0
SECTION
  2
BLOCKS
  0
BLOCK
  5
19
100
AcDbEntity
  8
0
100
AcDbBlockBegin
  2
*PAPER_SPACE
  70
     0
  10
0.0000000000
  20
0.0000000000
  30
0.0000000000
  3
*PAPER_SPACE
  1
 
  0
ENDBLK
  5
1a
100
AcDbEntity
  8
0
100
AcDbBlockEnd
  0
BLOCK
  5
1c
100
AcDbEntity
  8
0
100
AcDbBlockBegin
  2
*MODEL_SPACE
  70
     0
  10
0.0000000000
  20
0.0000000000
  30
0.0000000000
  3
*MODEL_SPACE
  1
 
  0
ENDBLK
  5
1d
100
AcDbEntity
  8
0
100
AcDbBlockEnd
  0
BLOCK
  5
22
100
AcDbEntity
  8
0_VIEW0
100
AcDbBlockBegin
  2
K5_INSIDE
  70
     0
  10
0.0000000000
  20
0.0000000000
  30
0.0000000000
  0
LINE
  5
24
100
AcDbEntity
  8
0_VIEW0
100
AcDbLine
  6
K5LT_THIN
  62
     7
  370
     18
  10
0.0000000000
  20
0.0000000000
  30
0.0000000000
  11
5.0000000000
  21
0.6582624912
  31
0.0000000000
  0
LINE
  5
26
100
AcDbEntity
  8
0_VIEW0
100
AcDbLine
  6
K5LT_THIN
  62
     7
  370
     18
  10
5.0000000000
  20
0.6582624912
  30
0.0000000000
  11
4.5000000000
  21
0.0000000000
  31
0.0000000000
  0
LINE
  5
27
100
AcDbEntity
  8
0_VIEW0
100
AcDbLine
  6
K5LT_THIN
  62
     7
  370
     18
  10
4.5000000000
  20
0.0000000000
  30
0.0000000000
  11
5.0000000000
  21
-0.6582624912
  31
0.0000000000
  0
LINE
  5
28
100
AcDbEntity
  8
0_VIEW0
100
AcDbLine
  6
K5LT_THIN
  62
     7
  370
     18
  10
5.0000000000
  20
-0.6582624912
  30
0.0000000000
  11
-0.0000000000
  21
0.0000000000
  31
0.0000000000
  0
HATCH
  5
29
100
AcDbEntity
  8
0_VIEW0
100
AcDbHatch
  62
     7
  10
0.0000000000
  20
0.0000000000
  30
0.0000000000
  210
0.0000000000
  220
0.0000000000
  230
1.0000000000
  2
 
  70
     1
  71
     0
  91
     2
  92
     1
  93
     4
  72
     1
  10
4.5000000000
  20
0.0000000000
  11
5.0000000000
  21
0.6582624912
  72
     1
  10
5.0000000000
  20
0.6582624912
  11
0.0000000000
  21
0.0000000000
  72
     1
  10
-0.0000000000
  20
0.0000000000
  11
5.0000000000
  21
-0.6582624912
  72
     1
  10
5.0000000000
  20
-0.6582624912
  11
4.5000000000
  21
0.0000000000
  97
     0
  92
     1
  93
     2
  72
     1
  10
4.5000000000
  20
0.0000000000
  11
0.0000000000
  21
0.0000000000
  72
     1
  10
0.0000000000
  20
0.0000000000
  11
4.5000000000
  21
0.0000000000
  97
     0
  75
     0
  76
     1
  98
     0
  0
ENDBLK
  5
2a
100
AcDbEntity
  8
0_VIEW0
100
AcDbBlockEnd
  0
BLOCK
  5
2b
100
AcDbEntity
  8
0_VIEW0
100
AcDbBlockBegin
  2
K5_OUTSIDE
  70
     0
  10
0.0000000000
  20
0.0000000000
  30
0.0000000000
  0
LINE
  5
2d
100
AcDbEntity
  8
0_VIEW0
100
AcDbLine
  6
K5LT_THIN
  62
     7
  370
     18
  10
0.0000000000
  20
0.0000000000
  30
0.0000000000
  11
-5.0000000000
  21
0.6582624912
  31
0.0000000000
  0
LINE
  5
2e
100
AcDbEntity
  8
0_VIEW0
100
AcDbLine
  6
K5LT_THIN
  62
     7
  370
     18
  10
-5.0000000000
  20
0.6582624912
  30
0.0000000000
  11
-4.5000000000
  21
0.0000000000
  31
0.0000000000
  0
LINE
  5
2f
100
AcDbEntity
  8
0_VIEW0
100
AcDbLine
  6
K5LT_THIN
  62
     7
  370
     18
  10
-4.5000000000
  20
0.0000000000
  30
0.0000000000
  11
-5.0000000000
  21
-0.6582624912
  31
0.0000000000
  0
LINE
  5
30
100
AcDbEntity
  8
0_VIEW0
100
AcDbLine
  6
K5LT_THIN
  62
     7
  370
     18
  10
-5.0000000000
  20
-0.6582624912
  30
0.0000000000
  11
0.0000000000
  21
0.0000000000
  31
0.0000000000
  0
LINE
  5
31
100
AcDbEntity
  8
0_VIEW0
100
AcDbLine
  6
K5LT_THIN
  62
     7
  370
     18
  10
0.0000000000
  20
0.0000000000
  30
0.0000000000
  11
-7.0000000000
  21
0.0000000000
  31
0.0000000000
  0
HATCH
  5
32
100
AcDbEntity
  8
0_VIEW0
100
AcDbHatch
  62
     7
  10
0.0000000000
  20
0.0000000000
  30
0.0000000000
  210
0.0000000000
  220
0.0000000000
  230
1.0000000000
  2
 
  70
     1
  71
     0
  91
     2
  92
     1
  93
     3
  72
     1
  10
0.0000000000
  20
0.0000000000
  11
-4.5000000000
  21
0.0000000000
  72
     1
  10
-4.5000000000
  20
0.0000000000
  11
-5.0000000000
  21
0.6582624912
  72
     1
  10
-5.0000000000
  20
0.6582624912
  11
0.0000000000
  21
0.0000000000
  97
     0
  92
     1
  93
     3
  72
     1
  10
0.0000000000
  20
0.0000000000
  11
-4.5000000000
  21
0.0000000000
  72
     1
  10
-4.5000000000
  20
0.0000000000
  11
-5.0000000000
  21
-0.6582624912
  72
     1
  10
-5.0000000000
  20
-0.6582624912
  11
0.0000000000
  21
0.0000000000
  97
     0
  75
     0
  76
     1
  98
     0
  0
ENDBLK
  5
33
100
AcDbEntity
  8
0_VIEW0
100
AcDbBlockEnd
  0
BLOCK
  5
34
100
AcDbEntity
  8
0_VIEW0
100
AcDbBlockBegin
  2
K5_OBLIQUE
  70
     0
  10
0.0000000000
  20
0.0000000000
  30
0.0000000000
  0
LINE
  5
36
100
AcDbEntity
  8
0_VIEW0
100
AcDbLine
  6
K5LT_THIN
  62
     7
  370
     18
  10
1.0605000257
  20
1.0605000257
  30
0.0000000000
  11
-1.0605000257
  21
-1.0605000257
  31
0.0000000000
  0
LINE
  5
37
100
AcDbEntity
  8
0_VIEW0
100
AcDbLine
  6
K5LT_THIN
  62
     7
  370
     18
  10
0.0000000000
  20
0.0000000000
  30
0.0000000000
  11
-2.0000000000
  21
0.0000000000
  31
0.0000000000
  0
ENDBLK
  5
38
100
AcDbEntity
  8
0_VIEW0
100
AcDbBlockEnd
  0
BLOCK
  5
39
100
AcDbEntity
  8
0_VIEW0
100
AcDbBlockBegin
  2
K5_ARROW_CLOSED_INSIDE
  70
     0
  10
0.0000000000
  20
0.0000000000
  30
0.0000000000
  0
LINE
  5
3b
100
AcDbEntity
  8
0_VIEW0
100
AcDbLine
  6
K5LT_THIN
  62
     7
  370
     18
  10
0.0000000000
  20
0.0000000000
  30
0.0000000000
  11
5.0000000000
  21
0.6582624912
  31
0.0000000000
  0
LINE
  5
3c
100
AcDbEntity
  8
0_VIEW0
100
AcDbLine
  6
K5LT_THIN
  62
     7
  370
     18
  10
5.0000000000
  20
0.6582624912
  30
0.0000000000
  11
5.0000000000
  21
0.0000000000
  31
0.0000000000
  0
LINE
  5
3d
100
AcDbEntity
  8
0_VIEW0
100
AcDbLine
  6
K5LT_THIN
  62
     7
  370
     18
  10
5.0000000000
  20
0.0000000000
  30
0.0000000000
  11
5.0000000000
  21
-0.6582624912
  31
0.0000000000
  0
LINE
  5
3e
100
AcDbEntity
  8
0_VIEW0
100
AcDbLine
  6
K5LT_THIN
  62
     7
  370
     18
  10
5.0000000000
  20
-0.6582624912
  30
0.0000000000
  11
-0.0000000000
  21
0.0000000000
  31
0.0000000000
  0
HATCH
  5
3f
100
AcDbEntity
  8
0_VIEW0
100
AcDbHatch
  62
     7
  10
0.0000000000
  20
0.0000000000
  30
0.0000000000
  210
0.0000000000
  220
0.0000000000
  230
1.0000000000
  2
 
  70
     1
  71
     0
  91
     2
  92
     1
  93
     4
  72
     1
  10
5.0000000000
  20
-0.6582624912
  11
5.0000000000
  21
0.0000000000
  72
     1
  10
5.0000000000
  20
0.0000000000
  11
5.0000000000
  21
0.6582624912
  72
     1
  10
5.0000000000
  20
0.6582624912
  11
0.0000000000
  21
0.0000000000
  72
     1
  10
-0.0000000000
  20
0.0000000000
  11
5.0000000000
  21
-0.6582624912
  97
     0
  92
     1
  93
     2
  72
     1
  10
5.0000000000
  20
0.0000000000
  11
0.0000000000
  21
0.0000000000
  72
     1
  10
0.0000000000
  20
0.0000000000
  11
5.0000000000
  21
0.0000000000
  97
     0
  75
     0
  76
     1
  98
     0
  0
ENDBLK
  5
40
100
AcDbEntity
  8
0_VIEW0
100
AcDbBlockEnd
  0
BLOCK
  5
41
100
AcDbEntity
  8
0_VIEW0
100
AcDbBlockBegin
  2
K5_ARROW_CLOSED_OUTSIDE
  70
     0
  10
0.0000000000
  20
0.0000000000
  30
0.0000000000
  0
LINE
  5
43
100
AcDbEntity
  8
0_VIEW0
100
AcDbLine
  6
K5LT_THIN
  62
     7
  370
     18
  10
0.0000000000
  20
0.0000000000
  30
0.0000000000
  11
-5.0000000000
  21
0.6582624912
  31
0.0000000000
  0
LINE
  5
44
100
AcDbEntity
  8
0_VIEW0
100
AcDbLine
  6
K5LT_THIN
  62
     7
  370
     18
  10
-5.0000000000
  20
0.6582624912
  30
0.0000000000
  11
-5.0000000000
  21
0.0000000000
  31
0.0000000000
  0
LINE
  5
45
100
AcDbEntity
  8
0_VIEW0
100
AcDbLine
  6
K5LT_THIN
  62
     7
  370
     18
  10
-5.0000000000
  20
0.0000000000
  30
0.0000000000
  11
-5.0000000000
  21
-0.6582624912
  31
0.0000000000
  0
LINE
  5
46
100
AcDbEntity
  8
0_VIEW0
100
AcDbLine
  6
K5LT_THIN
  62
     7
  370
     18
  10
-5.0000000000
  20
-0.6582624912
  30
0.0000000000
  11
0.0000000000
  21
0.0000000000
  31
0.0000000000
  0
LINE
  5
47
100
AcDbEntity
  8
0_VIEW0
100
AcDbLine
  6
K5LT_THIN
  62
     7
  370
     18
  10
0.0000000000
  20
0.0000000000
  30
0.0000000000
  11
-7.0000000000
  21
0.0000000000
  31
0.0000000000
  0
HATCH
  5
48
100
AcDbEntity
  8
0_VIEW0
100
AcDbHatch
  62
     7
  10
0.0000000000
  20
0.0000000000
  30
0.0000000000
  210
0.0000000000
  220
0.0000000000
  230
1.0000000000
  2
 
  70
     1
  71
     0
  91
     2
  92
     1
  93
     3
  72
     1
  10
0.0000000000
  20
0.0000000000
  11
-5.0000000000
  21
0.0000000000
  72
     1
  10
-5.0000000000
  20
0.0000000000
  11
-5.0000000000
  21
0.6582624912
  72
     1
  10
-5.0000000000
  20
0.6582624912
  11
0.0000000000
  21
0.0000000000
  97
     0
  92
     1
  93
     3
  72
     1
  10
0.0000000000
  20
0.0000000000
  11
-5.0000000000
  21
0.0000000000
  72
     1
  10
-5.0000000000
  20
0.0000000000
  11
-5.0000000000
  21
-0.6582624912
  72
     1
  10
-5.0000000000
  20
-0.6582624912
  11
0.0000000000
  21
0.0000000000
  97
     0
  75
     0
  76
     1
  98
     0
  0
ENDBLK
  5
49
100
AcDbEntity
  8
0_VIEW0
100
AcDbBlockEnd
  0
BLOCK
  5
4a
100
AcDbEntity
  8
0_VIEW0
100
AcDbBlockBegin
  2
K5_ARROW_OPEN_INSIDE
  70
     0
  10
0.0000000000
  20
0.0000000000
  30
0.0000000000
  0
LINE
  5
4c
100
AcDbEntity
  8
0_VIEW0
100
AcDbLine
  6
K5LT_THIN
  62
     7
  370
     18
  10
0.0000000000
  20
0.0000000000
  30
0.0000000000
  11
5.0000000000
  21
0.6582624912
  31
0.0000000000
  0
LINE
  5
4d
100
AcDbEntity
  8
0_VIEW0
100
AcDbLine
  6
K5LT_THIN
  62
     7
  370
     18
  10
0.0000000000
  20
0.0000000000
  30
0.0000000000
  11
5.0000000000
  21
-0.6582624912
  31
0.0000000000
  0
ENDBLK
  5
4e
100
AcDbEntity
  8
0_VIEW0
100
AcDbBlockEnd
  0
BLOCK
  5
4f
100
AcDbEntity
  8
0_VIEW0
100
AcDbBlockBegin
  2
K5_ARROW_OPEN_OUTSIDE
  70
     0
  10
0.0000000000
  20
0.0000000000
  30
0.0000000000
  0
LINE
  5
51
100
AcDbEntity
  8
0_VIEW0
100
AcDbLine
  6
K5LT_THIN
  62
     7
  370
     18
  10
0.0000000000
  20
0.0000000000
  30
0.0000000000
  11
-5.0000000000
  21
0.6582624912
  31
0.0000000000
  0
LINE
  5
52
100
AcDbEntity
  8
0_VIEW0
100
AcDbLine
  6
K5LT_THIN
  62
     7
  370
     18
  10
0.0000000000
  20
0.0000000000
  30
0.0000000000
  11
-5.0000000000
  21
-0.6582624912
  31
0.0000000000
  0
LINE
  5
53
100
AcDbEntity
  8
0_VIEW0
100
AcDbLine
  6
K5LT_THIN
  62
     7
  370
     18
  10
0.0000000000
  20
0.0000000000
  30
0.0000000000
  11
-7.0000000000
  21
0.0000000000
  31
0.0000000000
  0
ENDBLK
  5
54
100
AcDbEntity
  8
0_VIEW0
100
AcDbBlockEnd
  0
BLOCK
  5
55
100
AcDbEntity
  8
0_VIEW0
100
AcDbBlockBegin
  2
K5_ARROW_RIGHTANGLE_INSIDE
  70
     0
  10
0.0000000000
  20
0.0000000000
  30
0.0000000000
  0
LINE
  5
57
100
AcDbEntity
  8
0_VIEW0
100
AcDbLine
  6
K5LT_THIN
  62
     7
  370
     18
  10
0.0000000000
  20
0.0000000000
  30
0.0000000000
  11
2.0000000000
  21
2.0000000000
  31
0.0000000000
  0
LINE
  5
58
100
AcDbEntity
  8
0_VIEW0
100
AcDbLine
  6
K5LT_THIN
  62
     7
  370
     18
  10
0.0000000000
  20
0.0000000000
  30
0.0000000000
  11
2.0000000000
  21
-2.0000000000
  31
0.0000000000
  0
ENDBLK
  5
59
100
AcDbEntity
  8
0_VIEW0
100
AcDbBlockEnd
  0
BLOCK
  5
5a
100
AcDbEntity
  8
0_VIEW0
100
AcDbBlockBegin
  2
K5_ARROW_RIGHTANGLE_OUTSIDE
  70
     0
  10
0.0000000000
  20
0.0000000000
  30
0.0000000000
  0
LINE
  5
5c
100
AcDbEntity
  8
0_VIEW0
100
AcDbLine
  6
K5LT_THIN
  62
     7
  370
     18
  10
0.0000000000
  20
0.0000000000
  30
0.0000000000
  11
-2.0000000000
  21
2.0000000000
  31
0.0000000000
  0
LINE
  5
5d
100
AcDbEntity
  8
0_VIEW0
100
AcDbLine
  6
K5LT_THIN
  62
     7
  370
     18
  10
0.0000000000
  20
0.0000000000
  30
0.0000000000
  11
-2.0000000000
  21
-2.0000000000
  31
0.0000000000
  0
LINE
  5
5e
100
AcDbEntity
  8
0_VIEW0
100
AcDbLine
  6
K5LT_THIN
  62
     7
  370
     18
  10
0.0000000000
  20
0.0000000000
  30
0.0000000000
  11
-4.0000000000
  21
0.0000000000
  31
0.0000000000
  0
ENDBLK
  5
5f
100
AcDbEntity
  8
0_VIEW0
100
AcDbBlockEnd
  0
BLOCK
  5
60
100
AcDbEntity
  8
0_VIEW0
100
AcDbBlockBegin
  2
K5_DOT
  70
     0
  10
0.0000000000
  20
0.0000000000
  30
0.0000000000
  0
CIRCLE
  5
62
100
AcDbEntity
  8
0_VIEW0
100
AcDbCircle
  6
K5LT_THIN
  62
     7
  370
     18
  10
0.0000000000
  20
0.0000000000
  30
0.0000000000
  40
2.5000000000
  0
HATCH
  5
63
100
AcDbEntity
  8
0_VIEW0
100
AcDbHatch
  62
     7
  10
0.0000000000
  20
0.0000000000
  30
0.0000000000
  210
0.0000000000
  220
0.0000000000
  230
1.0000000000
  2
 
  70
     1
  71
     0
  91
     1
  92
     1
  93
     2
  72
     2
  10
0.0000000000
  20
0.0000000000
  40
2.5000000000
  50
0.0000000000
  51
180.0000000000
  73
     1
  72
     2
  10
0.0000000000
  20
0.0000000000
  40
2.5000000000
  50
180.0000000000
  51
0.0000000000
  73
     1
  97
     0
  75
     0
  76
     1
  98
     0
  0
ENDBLK
  5
64
100
AcDbEntity
  8
0_VIEW0
100
AcDbBlockEnd
  0
BLOCK
  5
65
100
AcDbEntity
  8
0_VIEW0
100
AcDbBlockBegin
  2
K5_SMALLDOT
  70
     0
  10
0.0000000000
  20
0.0000000000
  30
0.0000000000
  0
CIRCLE
  5
67
100
AcDbEntity
  8
0_VIEW0
100
AcDbCircle
  6
K5LT_THIN
  62
     7
  370
     18
  10
0.0000000000
  20
0.0000000000
  30
0.0000000000
  40
1.5000000000
  0
HATCH
  5
68
100
AcDbEntity
  8
0_VIEW0
100
AcDbHatch
  62
     7
  10
0.0000000000
  20
0.0000000000
  30
0.0000000000
  210
0.0000000000
  220
0.0000000000
  230
1.0000000000
  2
 
  70
     1
  71
     0
  91
     1
  92
     1
  93
     2
  72
     2
  10
0.0000000000
  20
0.0000000000
  40
1.5000000000
  50
0.0000000000
  51
180.0000000000
  73
     1
  72
     2
  10
0.0000000000
  20
0.0000000000
  40
1.5000000000
  50
180.0000000000
  51
0.0000000000
  73
     1
  97
     0
  75
     0
  76
     1
  98
     0
  0
ENDBLK
  5
69
100
AcDbEntity
  8
0_VIEW0
100
AcDbBlockEnd
  0
BLOCK
  5
6a
100
AcDbEntity
  8
0
100
AcDbBlockBegin
  2
*STAMP0
  70
     1
  10
0.0000000000
  20
0.0000000000
  30
0.0000000000
  0
LINE
  5
6c
100
AcDbEntity
  8
0
100
AcDbLine
  6
K5LT_BASIC
  62
     5
  370
     60
  10
20.0000000000
  20
20.0000000000
  30
0.0000000000
  11
205.0000000000
  21
20.0000000000
  31
0.0000000000
  0
LINE
  5
6e
100
AcDbEntity
  8
0
100
AcDbLine
  6
K5LT_BASIC
  62
     5
  370
     60
  10
20.0000000000
  20
5.0000000000
  30
0.0000000000
  11
20.0000000000
  21
20.0000000000
  31
0.0000000000
  0
LINE
  5
6f
100
AcDbEntity
  8
0
100
AcDbLine
  6
K5LT_THIN
  62
     7
  370
     18
  10
20.0000000000
  20
15.0000000000
  30
0.0000000000
  11
85.0000000000
  21
15.0000000000
  31
0.0000000000
  0
LINE
  5
70
100
AcDbEntity
  8
0
100
AcDbLine
  6
K5LT_BASIC
  62
     5
  370
     60
  10
85.0000000000
  20
5.0000000000
  30
0.0000000000
  11
85.0000000000
  21
20.0000000000
  31
0.0000000000
  0
LINE
  5
71
100
AcDbEntity
  8
0
100
AcDbLine
  6
K5LT_BASIC
  62
     5
  370
     60
  10
27.0000000000
  20
5.0000000000
  30
0.0000000000
  11
27.0000000000
  21
20.0000000000
  31
0.0000000000
  0
LINE
  5
72
100
AcDbEntity
  8
0
100
AcDbLine
  6
K5LT_BASIC
  62
     5
  370
     60
  10
60.0000000000
  20
5.0000000000
  30
0.0000000000
  11
60.0000000000
  21
20.0000000000
  31
0.0000000000
  0
LINE
  5
73
100
AcDbEntity
  8
0
100
AcDbLine
  6
K5LT_BASIC
  62
     5
  370
     60
  10
75.0000000000
  20
5.0000000000
  30
0.0000000000
  11
75.0000000000
  21
20.0000000000
  31
0.0000000000
  0
LINE
  5
74
100
AcDbEntity
  8
0
100
AcDbLine
  6
K5LT_BASIC
  62
     5
  370
     60
  10
37.0000000000
  20
5.0000000000
  30
0.0000000000
  11
37.0000000000
  21
20.0000000000
  31
0.0000000000
  0
LINE
  5
75
100
AcDbEntity
  8
0
100
AcDbLine
  6
K5LT_BASIC
  62
     5
  370
     60
  10
20.0000000000
  20
10.0000000000
  30
0.0000000000
  11
27.0000000000
  21
10.0000000000
  31
0.0000000000
  0
LINE
  5
76
100
AcDbEntity
  8
0
100
AcDbLine
  6
K5LT_BASIC
  62
     5
  370
     60
  10
27.0000000000
  20
10.0000000000
  30
0.0000000000
  11
37.0000000000
  21
10.0000000000
  31
0.0000000000
  0
LINE
  5
77
100
AcDbEntity
  8
0
100
AcDbLine
  6
K5LT_BASIC
  62
     5
  370
     60
  10
37.0000000000
  20
10.0000000000
  30
0.0000000000
  11
60.0000000000
  21
10.0000000000
  31
0.0000000000
  0
LINE
  5
78
100
AcDbEntity
  8
0
100
AcDbLine
  6
K5LT_BASIC
  62
     5
  370
     60
  10
60.0000000000
  20
10.0000000000
  30
0.0000000000
  11
75.0000000000
  21
10.0000000000
  31
0.0000000000
  0
LINE
  5
79
100
AcDbEntity
  8
0
100
AcDbLine
  6
K5LT_BASIC
  62
     5
  370
     60
  10
75.0000000000
  20
10.0000000000
  30
0.0000000000
  11
85.0000000000
  21
10.0000000000
  31
0.0000000000
  0
LINE
  5
7a
100
AcDbEntity
  8
0
100
AcDbLine
  6
K5LT_BASIC
  62
     5
  370
     60
  10
195.0000000000
  20
5.0000000000
  30
0.0000000000
  11
195.0000000000
  21
20.0000000000
  31
0.0000000000
  0
LINE
  5
7b
100
AcDbEntity
  8
0
100
AcDbLine
  6
K5LT_BASIC
  62
     5
  370
     60
  10
195.0000000000
  20
13.0000000000
  30
0.0000000000
  11
205.0000000000
  21
13.0000000000
  31
0.0000000000
  0
TEXT
  5
7c
100
AcDbEntity
  8
0
  62
     7
100
AcDbText
  10
195.7260417938
  20
14.7477083206
  30
0.0000000000
  40
3.5000000000
  41
0.6558230460
  1
Лист
  7
K5_TEXTSTYLE
  50
0.0000000000
  51
20.0000000000
100
AcDbText
  0
TEXT
  5
7d
100
AcDbEntity
  8
0
  62
     7
100
AcDbText
  10
20.5895833969
  20
5.7477083206
  30
0.0000000000
  40
3.5000000000
  41
0.6105390906
  1
Изм.
  7
K5_TEXTSTYLE
  50
0.0000000000
  51
20.0000000000
100
AcDbText
  0
TEXT
  5
7e
100
AcDbEntity
  8
0
  62
     7
100
AcDbText
  10
27.7260417938
  20
5.7477083206
  30
0.0000000000
  40
3.5000000000
  41
0.6558230460
  1
Лист
  7
K5_TEXTSTYLE
  50
0.0000000000
  51
20.0000000000
100
AcDbText
  0
TEXT
  5
7f
100
AcDbEntity
  8
0
  62
     7
100
AcDbText
  10
40.8270835876
  20
5.7477083206
  30
0.0000000000
  40
3.5000000000
  41
0.7000000000
  1
№ докум.
  7
K5_TEXTSTYLE
  50
0.0000000000
  51
20.0000000000
100
AcDbText
  0
TEXT
  5
80
100
AcDbEntity
  8
0
  62
     7
100
AcDbText
  10
63.2666668892
  20
5.7477083206
  30
0.0000000000
  40
3.5000000000
  41
0.7000000000
  1
Подп.
  7
K5_TEXTSTYLE
  50
0.0000000000
  51
20.0000000000
100
AcDbText
  0
TEXT
  5
81
100
AcDbEntity
  8
0
  62
     7
100
AcDbText
  10
75.7260417938
  20
5.7477083206
  30
0.0000000000
  40
3.5000000000
  41
0.6558230460
  1
Дата
  7
K5_TEXTSTYLE
  50
0.0000000000
  51
20.0000000000
100
AcDbText
  0
LINE
  5
82
100
AcDbEntity
  8
0
100
AcDbLine
  6
K5LT_BASIC
  62
     5
  370
     60
  10
8.0000000000
  20
5.0000000000
  30
0.0000000000
  11
8.0000000000
  21
150.0000000000
  31
0.0000000000
  0
LINE
  5
83
100
AcDbEntity
  8
0
100
AcDbLine
  6
K5LT_BASIC
  62
     5
  370
     60
  10
13.0000000000
  20
5.0000000000
  30
0.0000000000
  11
13.0000000000
  21
150.0000000000
  31
0.0000000000
  0
LINE
  5
84
100
AcDbEntity
  8
0
100
AcDbLine
  6
K5LT_BASIC
  62
     5
  370
     60
  10
20.0000000000
  20
5.0000000000
  30
0.0000000000
  11
8.0000000000
  21
5.0000000000
  31
0.0000000000
  0
LINE
  5
85
100
AcDbEntity
  8
0
100
AcDbLine
  6
K5LT_BASIC
  62
     5
  370
     60
  10
20.0000000000
  20
150.0000000000
  30
0.0000000000
  11
8.0000000000
  21
150.0000000000
  31
0.0000000000
  0
LINE
  5
86
100
AcDbEntity
  8
0
100
AcDbLine
  6
K5LT_BASIC
  62
     5
  370
     60
  10
20.0000000000
  20
30.0000000000
  30
0.0000000000
  11
8.0000000000
  21
30.0000000000
  31
0.0000000000
  0
LINE
  5
87
100
AcDbEntity
  8
0
100
AcDbLine
  6
K5LT_BASIC
  62
     5
  370
     60
  10
20.0000000000
  20
65.0000000000
  30
0.0000000000
  11
8.0000000000
  21
65.0000000000
  31
0.0000000000
  0
LINE
  5
88
100
AcDbEntity
  8
0
100
AcDbLine
  6
K5LT_BASIC
  62
     5
  370
     60
  10
20.0000000000
  20
90.0000000000
  30
0.0000000000
  11
8.0000000000
  21
90.0000000000
  31
0.0000000000
  0
LINE
  5
89
100
AcDbEntity
  8
0
100
AcDbLine
  6
K5LT_BASIC
  62
     5
  370
     60
  10
20.0000000000
  20
115.0000000000
  30
0.0000000000
  11
8.0000000000
  21
115.0000000000
  31
0.0000000000
  0
TEXT
  5
8a
100
AcDbEntity
  8
0
  62
     7
100
AcDbText
  10
12.2522916794
  20
6.7843751907
  30
0.0000000000
  40
3.5000000000
  41
0.7000000000
  1
Инв. № подл.
  7
K5_TEXTSTYLE
  50
90.0000000000
  51
20.0000000000
100
AcDbText
  0
TEXT
  5
8b
100
AcDbEntity
  8
0
  62
     7
100
AcDbText
  10
12.2522916794
  20
36.2145833969
  30
0.0000000000
  40
3.5000000000
  41
0.7000000000
  1
Подп. и дата
  7
K5_TEXTSTYLE
  50
90.0000000000
  51
20.0000000000
100
AcDbText
  0
TEXT
  5
8c
100
AcDbEntity
  8
0
  62
     7
100
AcDbText
  10
12.2522916794
  20
66.2145843506
  30
0.0000000000
  40
3.5000000000
  41
0.7000000000
  1
Взам. инв. №
  7
K5_TEXTSTYLE
  50
90.0000000000
  51
20.0000000000
100
AcDbText
  0
TEXT
  5
8d
100
AcDbEntity
  8
0
  62
     7
100
AcDbText
  10
12.2522916794
  20
91.7843751907
  30
0.0000000000
  40
3.5000000000
  41
0.7000000000
  1
Инв. № дубл.
  7
K5_TEXTSTYLE
  50
90.0000000000
  51
20.0000000000
100
AcDbText
  0
TEXT
  5
8e
100
AcDbEntity
  8
0
  62
     7
100
AcDbText
  10
12.2522916794
  20
121.2145833969
  30
0.0000000000
  40
3.5000000000
  41
0.7000000000
  1
Подп. и дата
  7
K5_TEXTSTYLE
  50
90.0000000000
  51
20.0000000000
100
AcDbText
  0
LINE
  5
8f
100
AcDbEntity
  8
0
100
AcDbLine
  6
K5LT_BASIC
  62
     5
  370
     60
  10
90.0000000000
  20
278.0000000000
  30
0.0000000000
  11
20.0000000000
  21
278.0000000000
  31
0.0000000000
  0
LINE
  5
90
100
AcDbEntity
  8
0
100
AcDbLine
  6
K5LT_BASIC
  62
     5
  370
     60
  10
90.0000000000
  20
292.0000000000
  30
0.0000000000
  11
90.0000000000
  21
278.0000000000
  31
0.0000000000
  0
TEXT
  5
91
100
AcDbEntity
  8
0
  62
     7
100
AcDbText
  10
95.5000000000
  20
0.7477083206
  30
0.0000000000
  40
3.5000000000
  41
0.7000000000
  1
Копировал
  7
K5_TEXTSTYLE
  50
0.0000000000
  51
20.0000000000
100
AcDbText
  0
TEXT
  5
92
100
AcDbEntity
  8
0
  62
     7
100
AcDbText
  10
165.5000000000
  20
0.7477083206
  30
0.0000000000
  40
3.5000000000
  41
0.7000000000
  1
Формат
  7
K5_TEXTSTYLE
  50
0.0000000000
  51
20.0000000000
100
AcDbText
  0
TEXT
  5
93
100
AcDbEntity
  8
0
  62
     7
100
AcDbText
  10
185.5000000000
  20
0.7266740799
  30
0.0000000000
  40
3.5000000000
  41
0.7000000000
  1
A4
  7
K5_TEXTSTYLE
  50
0.0000000000
  51
20.0000000000
100
AcDbText
  0
LINE
  5
94
100
AcDbEntity
  8
0
100
AcDbLine
  6
K5LT_BASIC
  62
     5
  370
     60
  10
20.0000000000
  20
5.0000000000
  30
0.0000000000
  11
20.0000000000
  21
292.0000000000
  31
0.0000000000
  0
LINE
  5
95
100
AcDbEntity
  8
0
100
AcDbLine
  6
K5LT_BASIC
  62
     5
  370
     60
  10
20.0000000000
  20
292.0000000000
  30
0.0000000000
  11
205.0000000000
  21
292.0000000000
  31
0.0000000000
  0
LINE
  5
96
100
AcDbEntity
  8
0
100
AcDbLine
  6
K5LT_BASIC
  62
     5
  370
     60
  10
205.0000000000
  20
292.0000000000
  30
0.0000000000
  11
205.0000000000
  21
5.0000000000
  31
0.0000000000
  0
LINE
  5
97
100
AcDbEntity
  8
0
100
AcDbLine
  6
K5LT_BASIC
  62
     5
  370
     60
  10
205.0000000000
  20
5.0000000000
  30
0.0000000000
  11
20.0000000000
  21
5.0000000000
  31
0.0000000000
  0
LINE
  5
98
100
AcDbEntity
  8
0
100
AcDbLine
  6
K5LT_THIN
  62
     7
  370
     18
  10
0.0000000000
  20
0.0000000000
  30
0.0000000000
  11
0.0000000000
  21
297.0000000000
  31
0.0000000000
  0
LINE
  5
99
100
AcDbEntity
  8
0
100
AcDbLine
  6
K5LT_THIN
  62
     7
  370
     18
  10
0.0000000000
  20
297.0000000000
  30
0.0000000000
  11
210.0000000000
  21
297.0000000000
  31
0.0000000000
  0
LINE
  5
9a
100
AcDbEntity
  8
0
100
AcDbLine
  6
K5LT_THIN
  62
     7
  370
     18
  10
210.0000000000
  20
297.0000000000
  30
0.0000000000
  11
210.0000000000
  21
0.0000000000
  31
0.0000000000
  0
LINE
  5
9b
100
AcDbEntity
  8
0
100
AcDbLine
  6
K5LT_THIN
  62
     7
  370
     18
  10
210.0000000000
  20
0.0000000000
  30
0.0000000000
  11
0.0000000000
  21
0.0000000000
  31
0.0000000000
  0
ENDBLK
  5
9c
100
AcDbEntity
  8
0
100
AcDbBlockEnd
  0
ENDSEC
  0
SECTION
  2
ENTITIES
  0
INSERT
  5
9d
100
AcDbEntity
  8
0
100
AcDbBlockReference
  2
*STAMP0
  10
0.0000000000
  20
0.0000000000
  30
0.0000000000
  41
1.0000000000
  42
1.0000000000
  43
1.0000000000
  50
0.0000000000
  0
TEXT
  5
a0
100
AcDbEntity
  8
0_VIEW0
  62
     7
100
AcDbText
  10
22.7140086403
  20
273.2343670622
  30
0.0000000000
  40
2.8499999046
  41
0.7000000000
  1
                                                                                                                          «Сог
  7
K5_TEXTSTYLE
  50
0.0000000000
  51
0.0000000000
100
AcDbText
  0
TEXT
  5
a1
100
AcDbEntity
  8
0_VIEW0
  62
     7
100
AcDbText
  10
22.7140086403
  20
273.2343670622
  30
0.0000000000
  40
2.8499999046
  41
0.7000000000
  1
л
  7
K5_TEXTSTYLE
  50
0.0000000000
  51
20.0000000000
100
AcDbText
  0
TEXT
  5
a2
100
AcDbEntity
  8
0_VIEW0
  62
     7
100
AcDbText
  10
162.5171397438
  20
273.2343670622
  30
0.0000000000
  40
2.8499999046
  41
0.7000000000
  1
асовано»
  7
K5_TEXTSTYLE
  50
0.0000000000
  51
0.0000000000
100
AcDbText
  0
TEXT
  5
a3
100
AcDbEntity
  8
0_VIEW0
  62
     7
100
AcDbText
  10
22.7140086403
  20
268.6760589376
  30
0.0000000000
  40
2.8499999046
  41
0.7000000000
  1
 
  7
K5_TEXTSTYLE
  50
0.0000000000
  51
0.0000000000
100
AcDbText
  0
TEXT
  5
a4
100
AcDbEntity
  8
0_VIEW0
  62
     7
100
AcDbText
  10
22.7140086403
  20
264.1177508131
  30
0.0000000000
  40
2.8499999046
  41
0.7000000000
  1
Заказ №_________                                                            Заказчик________________________
  7
K5_TEXTSTYLE
  50
0.0000000000
  51
0.0000000000
100
AcDbText
  0
TEXT
  5
a5
100
AcDbEntity
  8
0_VIEW0
  62
     7
100
AcDbText
  10
22.7140086403
  20
259.5594431654
  30
0.0000000000
  40
2.8499999046
  41
0.7000000000
  1
                                                                                                Должность_____________________
  7
K5_TEXTSTYLE
  50
0.0000000000
  51
0.0000000000
100
AcDbText
  0
TEXT
  5
a6
100
AcDbEntity
  8
0_VIEW0
  62
     7
100
AcDbText
  10
22.7140086403
  20
259.5594431654
  30
0.0000000000
  40
2.8499999046
  41
0.7000000000
  1
_
  7
K5_TEXTSTYLE
  50
0.0000000000
  51
20.0000000000
100
AcDbText
  0
TEXT
  5
a7
100
AcDbEntity
  8
0_VIEW0
  62
     7
100
AcDbText
  10
22.7140086403
  20
255.0011364714
  30
0.0000000000
  40
2.8499999046
  41
0.7000000000
  1
                                                                                              Ф.И.О.__________________________
  7
K5_TEXTSTYLE
  50
0.0000000000
  51
0.0000000000
100
AcDbText
  0
TEXT
  5
a8
100
AcDbEntity
  8
0_VIEW0
  62
     7
100
AcDbText
  10
22.7140086403
  20
250.4428288237
  30
0.0000000000
  40
2.8499999046
  41
0.7000000000
  1
                                                                                               Дата___________________________
  7
K5_TEXTSTYLE
  50
0.0000000000
  51
0.0000000000
100
AcDbText
  0
TEXT
  5
a9
100
AcDbEntity
  8
0_VIEW0
  62
     7
100
AcDbText
  10
22.7140086403
  20
250.4428288237
  30
0.0000000000
  40
2.8499999046
  41
0.7000000000
  1
_
  7
K5_TEXTSTYLE
  50
0.0000000000
  51
20.0000000000
100
AcDbText
  0
TEXT
  5
aa
100
AcDbEntity
  8
0_VIEW0
  62
     7
100
AcDbText
  10
194.2140086403
  20
245.8845211759
  30
0.0000000000
  40
2.8499999046
  41
0.7000000000
  1
      
  7
K5_TEXTSTYLE
  50
0.0000000000
  51
0.0000000000
100
AcDbText
  0
TEXT
  5
ab
100
AcDbEntity
  8
0_VIEW0
  62
     7
100
AcDbText
  10
55.4432719459
  20
241.3262135282
  30
0.0000000000
  40
1.8999999762
  41
0.7000000000
  1
 
  7
K5_TEXTSTYLE
  50
0.0000000000
  51
0.0000000000
100
AcDbText
  0
TEXT
  5
ac
100
AcDbEntity
  8
0_VIEW0
  62
     7
100
AcDbText
  10
56.1470645180
  20
241.3262135282
  30
0.0000000000
  40
2.8499999046
  41
0.7000000000
  1
 КТП-СЭЩ-Ж(М)  25 - 400 кВА на напряжение 27,5/0,4 кВ
  7
K5_TEXTSTYLE
  50
0.0000000000
  51
0.0000000000
100
AcDbText
  0
TEXT
  5
ad
100
AcDbEntity
  8
0_VIEW0
  62
     7
100
AcDbText
  10
22.7140086403
  20
237.9605786100
  30
0.0000000000
  40
1.8999999762
  41
0.7000000000
  1
 
  7
K5_TEXTSTYLE
  50
0.0000000000
  51
0.0000000000
100
AcDbText
  0
TEXT
  5
ae
100
AcDbEntity
  8
0_VIEW0
  62
     7
100
AcDbText
  10
22.7140086403
  20
24.7932507292
  30
0.0000000000
  40
2.4000000954
  41
0.7000000000
  1
* – При заказе заполнить опросный лист завода изготовителя счетчиков.
  7
K5_TEXTSTYLE
  50
0.0000000000
  51
0.0000000000
100
AcDbText
  0
ENDSEC
  0
SECTION
  2
OBJECTS
  0
DICTIONARY
  5
c
100
AcDbDictionary
  3
ACAD_GROUP
  350
d
  3
ACAD_IMAGE_DICT
  350
e
  3
ACAD_IMAGE_VARS
  350
f
  3
ACAD_MLINESTYLE
  350
1f
  0
DICTIONARY
  5
d
102
{ACAD_REACTORS
  330
c
102
}
100
AcDbDictionary
  0
DICTIONARY
  5
1f
102
{ACAD_REACTORS
  330
c
102
}
100
AcDbDictionary
  3
STANDARD
  350
20
  0
MLINESTYLE
  5
20
102
{ACAD_REACTORS
  330
1f
102
}
100
AcDbMlineStyle
  2
STANDARD
  70
     0
  3
 
  62
     256
  51
90.0000000000
  52
90.0000000000
  71
     2
  49
0.5000000000
  62
     256
  6
BYLAYER
  49
-0.5000000000
  62
     256
  6
BYLAYER
  0
DICTIONARY
  5
e
  100
AcDbDictionary
  281
     1
  0
RASTERVARIABLES
  5
f
  100
AcDbRasterVariables
  90
     0
  70
     0
  71
     1
  72
     1
  0
ENDSEC
  0
EOF
